  0
SECTION
  2
HEADER
  9
$ACADVER
  1
AC1009
  9
$INSBASE
 10
0
 20
0
 30
0
  9
$EXTMIN
 10
0
 20
0
  9
$EXTMAX
 10
420
 20
297
  9
$LIMMIN
 10
0
 20
0
  9
$LIMMAX
 10
420
 20
297
  9
$LTSCALE
 40
1
  0
ENDSEC
  0
SECTION
  2
TABLES
  0
TABLE
  2
LTYPE
 70
     9
  0
LTYPE
  2
CONTINUOUS
 70
    64
  3
実線
 72
    65
 73
     0
 40
0.0
  0
LTYPE
  2
DASHED1
 70
    64
  3
--  --  --  --  --  --  --  --  
 72
    65
 73
     2
 40
2.5
 49
1.25
 49
-1.25
  0
LTYPE
  2
DASHED2
 70
    64
  3
----    ----    ----    ----    
 72
    65
 73
     2
 40
5.0
 49
2.5
 49
-2.5
  0
LTYPE
  2
DASHED3
 70
    64
  3
------  ------  ------  ------  
 72
    65
 73
     2
 40
5.0
 49
3.75
 49
-1.25
  0
LTYPE
  2
CENTER1
 70
    64
  3
----- - ----- - ----- - ----- - 
 72
    65
 73
     4
 40
10.0
 49
6.25
 49
-1.25
 49
1.25
 49
-1.25
  0
LTYPE
  2
CENTER2
 70
    64
  3
----------  --  ----------  --  
 72
    65
 73
     4
 40
20.0
 49
12.5
 49
-2.5
 49
2.5
 49
-2.5
  0
LTYPE
  2
PHANTOM1
 70
    64
  3
--- - - --- - - --- - - --- - - 
 72
    65
 73
     6
 40
10.0
 49
3.25
 49
-1.25
 49
1.25
 49
-1.25
 49
1.25
 49
-1.25
  0
LTYPE
  2
PHANTOM2
 70
    64
  3
--------  -  -  --------  -  -  
 72
    65
 73
     6
 40
20.0
 49
10.0
 49
-2.5
 49
1.25
 49
-2.5
 49
1.25
 49
-2.5
  0
LTYPE
  2
DOT
 70
    64
  3
-   -   -   -   -   -   -   -   
 72
    65
 73
     2
 40
2.5
 49
0.625
 49
-1.875
  0
LTYPE
  2
DUMMY
 70
    64
  3
ダミー
 72
    65
 73
     0
 40
0.0
  0
LTYPE
  2
RAND1
 70
    64
  3
----- - ----- - ----- - ----- - 
 72
    65
 73
     4
 40
10.0
 49
6.25
 49
-1.25
 49
1.25
 49
-1.25
  0
LTYPE
  2
RAND2
 70
    64
  3
----------  --  ----------  --  
 72
    65
 73
     4
 40
20.0
 49
12.5
 49
-2.5
 49
2.5
 49
-2.5
  0
LTYPE
  2
RAND3
 70
    64
  3
--- - - --- - - --- - - --- - - 
 72
    65
 73
     6
 40
10.0
 49
3.25
 49
-1.25
 49
1.25
 49
-1.25
 49
1.25
 49
-1.25
  0
LTYPE
  2
RAND4
 70
    64
  3
--------  -  -  --------  -  -  
 72
    65
 73
     6
 40
20.0
 49
10.0
 49
-2.5
 49
1.25
 49
-2.5
 49
1.25
 49
-2.5
  0
LTYPE
  2
RAND5
 70
    64
  3
----- - ----- - ----- - ----- - 
 72
    65
 73
     4
 40
10.0
 49
6.25
 49
-1.25
 49
1.25
 49
-1.25
  0
LTYPE
  2
LONG1
 70
    64
  3
----------  --  ----------  --  
 72
    65
 73
     4
 40
20.0
 49
12.5
 49
-2.5
 49
2.5
 49
-2.5
  0
LTYPE
  2
LONG2
 70
    64
  3
--- - - --- - - --- - - --- - - 
 72
    65
 73
     6
 40
10.0
 49
3.25
 49
-1.25
 49
1.25
 49
-1.25
 49
1.25
 49
-1.25
  0
LTYPE
  2
LONG3
 70
    64
  3
--------  -  -  --------  -  -  
 72
    65
 73
     6
 40
20.0
 49
10.0
 49
-2.5
 49
1.25
 49
-2.5
 49
1.25
 49
-2.5
  0
LTYPE
  2
LONG4
 70
    64
  3
----- - ----- - ----- - ----- - 
 72
    65
 73
     4
 40
10.0
 49
6.25
 49
-1.25
 49
1.25
 49
-1.25
  0
LTYPE
  2
LONG5
 70
    64
  3
----------  --  ----------  --  
 72
    65
 73
     4
 40
20.0
 49
12.5
 49
-2.5
 49
2.5
 49
-2.5
  0
ENDTAB
  0
TABLE
  2
STYLE
  5
3
100
AcDbSymbolTable
 70
     1
  0
STYLE
  5
10
100
AcDbSymbolTableRecord
100
AcDbTextStyleTableRecord
  2
STANDARD
 70
     0
 40
0.0
 41
1.0
 50
0.0
 71
     0
 42
0.2
  3
txt
  4
bigfont.shx
  0
STYLE
  5
26
100
AcDbSymbolTableRecord
100
AcDbTextStyleTableRecord
  2
TATEGAKI
 70
    68
 40
0.0
 41
1.0
 50
0.0
 71
     0
 42
1.0
  3
txt
  4
bigfont.shx
  0
ENDTAB
  0
TABLE
  2
LAYER
 70
    2
  0
LAYER
  2
_0-0_
 70
   64
 62
    7
  6
CONTINUOUS
  0
LAYER
  2
ADD_LINE
 70
   64
 62
    7
  6
CONTINUOUS
  0
ENDTAB
  0
ENDSEC
  0
SECTION
  2
BLOCKS
  0
ENDSEC
  0
SECTION
  2
ENTITIES
  0
TEXT
  8
_0-0_
 62
    7
 10
129.18301
 20
195.55607
 40
5
 41
1
 50
-60
  1
r
  0
TEXT
  8
_0-0_
 62
    7
 10
183.00683
 20
181.84378
 40
5
 41
1
 50
0
  1
β
  0
TEXT
  8
_0-0_
 62
    7
 10
191.0643
 20
159.86886
 40
5
 41
1
 50
0
  1
α
  0
LINE
  8
_0-0_
  6
CONTINUOUS
 62
    7
 10
150
 20
158.5
 11
110
 21
227.78203
  0
LINE
  8
_0-0_
  6
CONTINUOUS
 62
    7
 10
110
 20
227.78203
 11
110.77645
 21
224.88425
  0
LINE
  8
_0-0_
  6
CONTINUOUS
 62
    7
 10
110
 20
227.78203
 11
112.12132
 21
225.66071
  0
LINE
  8
_0-0_
  6
CONTINUOUS
 62
    7
 10
163.6808
 20
196.0877
 11
166.13826
 21
194.36697
  0
LINE
  8
_0-0_
  6
CONTINUOUS
 62
    7
 10
163.6808
 20
196.0877
 11
166.66938
 21
195.82623
  0
ARC
  8
_0-0_
  6
CONTINUOUS
 62
    7
 10
150
 20
158.5
 40
40
 50
10
 51
70
  0
LINE
  8
_0-0_
  6
CONTINUOUS
 62
    7
 10
189.39231
 20
165.44592
 11
189.13084
 21
162.45734
  0
LINE
  8
_0-0_
  6
CONTINUOUS
 62
    7
 10
189.39231
 20
165.44592
 11
190.66016
 21
162.727
  0
ARC
  8
_0-0_
  6
CONTINUOUS
 62
    7
 10
150
 20
158.5
 40
40
 50
0
 51
10
  0
CIRCLE
  8
_0-0_
  6
CONTINUOUS
 62
    7
 10
71.215379
 20
144.60814
 40
10
  0
CIRCLE
  8
_0-0_
  6
CONTINUOUS
 62
    7
 10
98.576991
 20
219.78355
 40
10
  0
CIRCLE
  8
_0-0_
  6
CONTINUOUS
 62
    7
 10
177.36161
 20
233.6754
 40
10
  0
LINE
  8
_0-0_
  6
PHANTOM1
 62
    4
 10
150
 20
158.5
 11
177.36161
 21
233.6754
  0
CIRCLE
  8
_0-0_
  6
CONTINUOUS
 62
    7
 10
228.78462
 20
172.39185
 40
10
  0
CIRCLE
  8
_0-0_
  6
PHANTOM1
 62
    4
 10
150
 20
158.5
 40
80
  0
LINE
  8
_0-0_
  6
PHANTOM1
 62
    4
 10
150
 20
158.5
 11
228.78462
 21
172.39185
  0
LINE
  8
_0-0_
  6
CENTER1
 62
    3
 10
150
 20
258.5
 11
150
 21
58.5
  0
LINE
  8
_0-0_
  6
CENTER1
 62
    3
 10
50
 20
158.5
 11
250
 21
158.5
  0
TEXT
  8
_0-0_
 62
    7
 10
150.80583
 20
152.57747
 40
5
 41
1
 50
0
  1
(x,y)
  0
TEXT
  8
_0-0_
 62
    7
 10
230
 20
98.5
 40
5
 41
1
 50
0
  1
β:穴の間の角度
  0
TEXT
  8
_0-0_
 62
    7
 10
230
 20
108.5
 40
5
 41
1
 50
0
  1
α:始角
  0
TEXT
  8
_0-0_
 62
    7
 10
230
 20
118.5
 40
5
 41
1
 50
0
  1
r:半径
  0
TEXT
  8
_0-0_
 62
    7
 10
230
 20
88.5
 40
5
 41
1
 50
0
  1
k:穴の個数
  0
TEXT
  8
_0-0_
 62
    7
 10
230
 20
68.5
 40
5
 41
1
 50
0
  1
z:穴の深さ
  0
TEXT
  8
_0-0_
 62
    7
 10
230
 20
78.5
 40
5
 41
1
 50
0
  1
(x,y):円の中心座標
  0
TEXT
  8
_0-0_
 62
    7
 10
230
 20
58.5
 40
5
 41
1
 50
0
  1
r0:R点
  0
TEXT
  8
_0-0_
 62
    7
 10
230
 20
48.5
 40
5
 41
1
 50
0
  1
q:一回の切り込み量(省略可)
  0
TEXT
  8
_0-0_
 62
    7
 10
230
 20
38.5
 40
5
 41
1
 50
0
  1
f:切削送り速度
  0
TEXT
  8
_0-0_
 62
    7
 10
230
 20
28.5
 40
5
 41
1
 50
0
  1
s:回転数
  0
TEXT
  8
_0-0_
 62
    7
 10
230
 20
18.5
 40
5
 41
1
 50
0
  1
m:切削油(入:1,切:0)(省略可)
  0
TEXT
  8
_0-0_
 62
    7
 10
48
 20
34.5
 40
5
 41
1
 50
0
  1
マクロ本体
  0
TEXT
  8
_0-0_
 62
    7
 10
48
 20
22.5
 40
5
 41
1
 50
0
  1
G90;
  0
TEXT
  8
_0-0_
 62
    7
 10
48
 20
16.5
 40
5
 41
1
 50
0
  1
S#19;
  0
TEXT
  8
_0-0_
 62
    7
 10
48
 20
10.5
 40
5
 41
1
 50
0
  1
M3;
  0
TEXT
  8
_0-0_
 62
    7
 10
48
 20
-1.5
 40
5
 41
1
 50
0
  1
G83X[#18*COS[#1]+#24]Y[#18*SIN[#1]+#25]Z#26Q#17R#11F#9G99;
  0
TEXT
  8
_0-0_
 62
    7
 10
48
 20
-7.5
 40
5
 41
1
 50
0
  1
#31=1;
  0
TEXT
  8
_0-0_
 62
    7
 10
48
 20
-13.5
 40
5
 41
1
 50
0
  1
WHILE[#31 LT #6]DO1;
  0
TEXT
  8
_0-0_
 62
    7
 10
48
 20
-19.5
 40
5
 41
1
 50
0
  1
#32=#2*#31+#1;
  0
TEXT
  8
_0-0_
 62
    7
 10
48
 20
-25.5
 40
5
 41
1
 50
0
  1
X[#18*COS[#32]+#24]Y[#18*SIN[#32]+#25];
  0
TEXT
  8
_0-0_
 62
    7
 10
48
 20
-31.5
 40
5
 41
1
 50
0
  1
#31=#31+1;
  0
TEXT
  8
_0-0_
 62
    7
 10
48
 20
-37.5
 40
5
 41
1
 50
0
  1
END1;
  0
TEXT
  8
_0-0_
 62
    7
 10
48
 20
-49.5
 40
5
 41
1
 50
0
  1
M5;
  0
TEXT
  8
_0-0_
 62
    7
 10
48
 20
-55.5
 40
5
 41
1
 50
0
  1
M99;
  0
TEXT
  8
_0-0_
 62
    7
 10
48
 20
46.5
 40
6
 41
1
 50
0
  1
G65P10RrAαBβKkXxYyZzHr0QqFfSsMm
  0
TEXT
  8
_0-0_
 62
    7
 10
48
 20
28.5
 40
5
 41
1
 50
0
  1
O10;
  0
TEXT
  8
_0-0_
 62
    7
 10
48
 20
52.5
 40
5
 41
1
 50
0
  1
マクロ呼び出し命令
  0
TEXT
  8
_0-0_
 62
    7
 10
50
 20
268.5
 40
8
 41
1
 50
0
  1
ボルトホールサークルのマクロ例(プログラム番号10のとき)
  0
TEXT
  8
_0-0_
 62
    7
 10
48
 20
4.5
 40
5
 41
1
 50
0
  1
IF[ROUND[#13] EQ 1]THEN M8;
  0
TEXT
  8
_0-0_
 62
    7
 10
48
 20
-43.5
 40
5
 41
1
 50
0
  1
IF[ROUND[#13] EQ 1]THEN M9;
  0
ENDSEC
  0
EOF
